Favorite Licks/Runs/Arpeggios

The first thirty years are the worst

Moderators: Zoot, Teddy Dupont

Favorite Licks/Runs/Arpeggios

Postby woodshedder » Fri Sep 05, 2003 4:12 pm

mkay, let's test your community spirit. let's all whip out our favorite licks runs, and arpeggios. i'll even go first:

Key of G

------------------3--7--10
----------------5----------
--------------4------------
------------5--------------
--------7------------------
--3--7---------------------


cheers,
Woodshedder
User avatar
woodshedder
 
Posts: 156
Joined: Mon Jul 28, 2003 1:44 pm
Location: Keyes sur Shenandoah

Postby bwilkins » Fri Sep 05, 2003 5:19 pm

Oh Shanandoah,

This could be interesting. But maybe all those old hands & more advanced players will say :roll:

I happen to like that G-maj arp in "Stompin at Decca", & have been learning to move it around and modify it for similar chords, minors, etc.

------------------- 7---
-----------------8-----
-----------7--9--------
------5--9-------------
--5-7------------------
------------------------
bw
bwilkins
 
Posts: 70
Joined: Fri Feb 21, 2003 10:59 pm
Location: Maine

Postby justjack » Fri Sep 05, 2003 8:26 pm

A sweet, simple one that goes well with something like the B section of Dinah:

G--9-9-9-12-9---8-8-8-12-8---7-7-7-11-7---6-6-6-9-6---
G--9-9-9-12-9---6-6-6-9-6---5-5-5-9-5--5-9-9-7----

And, if you break five strings, you can still play it!
User avatar
justjack
Mad For It
 
Posts: 1855
Joined: Wed Feb 19, 2003 10:40 pm
Location: Western Mass


Return to How to play Gypsy Jazz guitar

Who is online

Users browsing this forum: No registered users and 2 guests

cron