Minor lick

The first thirty years are the worst

Moderators: Zoot, Teddy Dupont

Minor lick

Postby emicad » Tue Jun 20, 2006 7:17 am

Hi to all,
I need an help:
I'm sure most of you know the typical major lick played in this way (for example in Gmajor):
- - - - - - - - - - - - - - - - - - - - - - - - - - - - - - - - - - - - - 5 - 3 - 2 - 3 - 7 -
- - - - - - - - - - - - - - - - - - - - - - - - - - - - 5 - 3 - 2 - 3 - - - - - - - - - - - -
- - - - - - - - - - - - - - - - - - - 5 - 4 - 3 - 4 - - - - - - - - - - - - - - - - - - - - -
- - - - - - - - - - 7 - 5 - 4 - 5 - - - - - - - - - - - - - - - - - - - - - - - - - - - - - -
- 7 - 5 - 4 - 5 - - - - - - - - - - - - - - - - - - - - - - - - - - - - - - - - - - - - - - -
- - - - - - - - - - - - - - - - - - - - - - - - - - - - - - - - - - - - - - - - - - - - - - - -
There is also a minor lick played with this pattern, someone remember it? I've found it on a Robin Nolan book but I can't remember it...
User avatar
emicad
 
Posts: 803
Joined: Tue Aug 24, 2004 6:56 am
Location: Rome - Italy

Postby Persen » Tue Jun 20, 2006 9:05 am

Hi !

Do you mean something like this?:

------------------------------------------5-3-2-3-6--
--------------------------------4-3-2-3------------
----------------------5-3-2-3----------------------
------------7-5-4-5--------------------------------
--6-5-4-5------------------------------------------
-----------------------------------------------------
Last edited by Persen on Tue Jun 20, 2006 9:17 am, edited 1 time in total.
User avatar
Persen
 
Posts: 26
Joined: Tue Mar 23, 2004 10:02 pm
Location: Oslo, Norway

Postby emicad » Tue Jun 20, 2006 9:16 am

Persen wrote:Hi !

Do you mean something like this?:

------------------------------------------5-3-2-6--
--------------------------------4-3-2-3------------
----------------------5-3-2-3----------------------
------------7-5-4-5--------------------------------
--6-5-4-5------------------------------------------
-----------------------------------------------------
:D
User avatar
emicad
 
Posts: 803
Joined: Tue Aug 24, 2004 6:56 am
Location: Rome - Italy

Postby emicad » Sat Jun 24, 2006 5:25 pm

Here two licks I usually play over major chords, based on common gypsy jazz licks but with some notes added and different intervals, I hope you'll like it. I suggest to play the licks with 4 fingers, let me know if you need all the fingerings added to the file, happy to do it.
Anyone knows how to add left-hand fingerings in PowerTab?
Attachments
maj_licks.zip
(771 Bytes) Downloaded 474 times
maj_licks.jpg
User avatar
emicad
 
Posts: 803
Joined: Tue Aug 24, 2004 6:56 am
Location: Rome - Italy


Return to How to play Gypsy Jazz guitar

Who is online

Users browsing this forum: No registered users and 6 guests

cron