Adieu Lacheben [DE CAUTER, KOEN]

Submissions for tune chords and licks

Moderators: Zoot, Teddy Dupont

Adieu Lacheben [DE CAUTER, KOEN]

Postby djangology » Wed Sep 17, 2003 4:11 am

I figured out the chords for Adieu Lacheben from my best guess of what was happening in the Patrick Sassois arrangment on the Rhythmes Gitanes CD...

This is a rough draft and shouldn't be taken seriously, but I would also like feedback on any changes that can be made if anyone wants to chime in.

Code: Select all
----------------------12-11---10--------------
---12-11-----10------------------10-12-13-12--
----------11----12--9-------------------------
-9--------------------------------------------
----------------------------------------------
----------------------------------------------


Code: Select all
----------14-12----------14-12--------------------------------
-10-12-13--------8-10-12--------11----------------------------
------------------------------------12-11-9-11--12-11-9-------
--------------------------------------------------------12-10-
--------------------------------------------------------------
--------------------------------------------------------------


And the chords (waltz):
| Em | Am | B7 | Em |
| Em | Am | D7 | G7 |
| B7/F# | B7 | Em | Em/G |
| Am | B7 | Em | E-maj Em |
User avatar
djangology
 
Posts: 1031
Joined: Mon Mar 03, 2003 7:52 pm
Location: Portland, Oregon, USA

Postby justjack » Wed Sep 17, 2003 6:05 am

Anywhere a poor sap can find an mp3 of this tune? Sounds good!
User avatar
justjack
Mad For It
 
Posts: 1855
Joined: Wed Feb 19, 2003 10:40 pm
Location: Western Mass

Postby djangology » Wed Sep 17, 2003 5:20 pm

the only place i have seen it is on that Patrick Sassois CD i mentioned. im not sure if anyone else recorded it. does anyone know?
User avatar
djangology
 
Posts: 1031
Joined: Mon Mar 03, 2003 7:52 pm
Location: Portland, Oregon, USA


Return to Tunes

Who is online

Users browsing this forum: No registered users and 6 guests